ISO-10303-21;
HEADER;
FILE_DESCRIPTION (( 'STEP AP203' ),
    '1' );
FILE_NAME ('250814 STEP 3-400575-00_6812.STEP',
    '2025-08-14T10:31:45',
    ( '' ),
    ( '' ),
    'SwSTEP 2.0',
    'SolidWorks 2024',
    '' );
FILE_SCHEMA (( 'CONFIG_CONTROL_DESIGN' ));
ENDSEC;

DATA;
#1 = ORGANIZATION ( 'UNSPECIFIED', 'UNSPECIFIED', '' ) ;
#2 = EDGE_LOOP ( 'NONE', ( #275 ) ) ;
#3 = FACE_OUTER_BOUND ( 'NONE', #322, .T. ) ;
#4 = DIRECTION ( 'NONE',  ( -0.000000000000000000, -0.000000000000000000, 1.000000000000000000 ) ) ;
#5 = CC_DESIGN_PERSON_AND_ORGANIZATION_ASSIGNMENT ( #143, #154, ( #325 ) ) ;
#6 = CARTESIAN_POINT ( 'NONE',  ( 0.000000000000000000, 25.99668878408266082, -7.799999999999999822 ) ) ;
#7 = AXIS2_PLACEMENT_3D ( 'NONE', #197, #46, #69 ) ;
#8 = FACE_OUTER_BOUND ( 'NONE', #277, .T. ) ;
#9 = CARTESIAN_POINT ( 'NONE',  ( 0.000000000000000000, 0.000000000000000000, -6.329598062809194126 ) ) ;
#10 = VERTEX_POINT ( 'NONE', #40 ) ;
#11 = EDGE_LOOP ( 'NONE', ( #63 ) ) ;
#12 = CARTESIAN_POINT ( 'NONE',  ( 64.48770650821586514, 0.000000000000000000, -1.478207252018050921 ) ) ;
#13 = EDGE_CURVE ( 'NONE', #36, #36, #233, .T. ) ;
#14 = EDGE_LOOP ( 'NONE', ( #192 ) ) ;
#15 = CALENDAR_DATE ( 2025, 14, 8 ) ;
#16 = CARTESIAN_POINT ( 'NONE',  ( 15.00000000000000000, 0.000000000000000000, -7.800000000000001599 ) ) ;
#17 = CARTESIAN_POINT ( 'NONE',  ( 0.000000000000000000, 0.000000000000000000, 7.799999999999999822 ) ) ;
#18 = ADVANCED_FACE ( 'NONE', ( #198, #280 ), #220, .F. ) ;
#19 = CARTESIAN_POINT ( 'NONE',  ( 0.000000000000000000, 0.000000000000000000, -5.600000000000000533 ) ) ;
#20 = CONICAL_SURFACE ( 'NONE', #47, 76.20000000000000284, 1.178097245096171086 ) ;
#21 = DIRECTION ( 'NONE',  ( -0.000000000000000000, -0.000000000000000000, 1.000000000000000000 ) ) ;
#22 = CC_DESIGN_PERSON_AND_ORGANIZATION_ASSIGNMENT ( #165, #301, ( #28 ) ) ;
#23 = DIRECTION ( 'NONE',  ( 0.000000000000000000, 0.000000000000000000, 1.000000000000000000 ) ) ;
#24 = ORIENTED_EDGE ( 'NONE', *, *, #128, .T. ) ;
#25 = CARTESIAN_POINT ( 'NONE',  ( 0.000000000000000000, 23.52000575465030252, 7.799999999999999822 ) ) ;
#26 = LOCAL_TIME ( 13, 31, 45.00000000000000000, #272 ) ;
#27 = DIRECTION ( 'NONE',  ( -1.000000000000000000, 0.000000000000000000, 0.000000000000000000 ) ) ;
#28 = PRODUCT_DEFINITION ( 'UNKNOWN', '', #166, #157 ) ;
#29 = SECURITY_CLASSIFICATION_LEVEL ( 'unclassified' ) ;
#30 = FACE_OUTER_BOUND ( 'NONE', #2, .T. ) ;
#31 = FACE_BOUND ( 'NONE', #273, .T. ) ;
#32 = AXIS2_PLACEMENT_3D ( 'NONE', #96, #23, #195 ) ;
#33 = EDGE_CURVE ( 'NONE', #84, #84, #90, .T. ) ;
#34 = FACE_OUTER_BOUND ( 'NONE', #268, .T. ) ;
#35 = PERSON_AND_ORGANIZATION_ROLE ( 'design_owner' ) ;
#36 = VERTEX_POINT ( 'NONE', #16 ) ;
#37 = CIRCLE ( 'NONE', #131, 76.20000000000000284 ) ;
#38 = VERTEX_POINT ( 'NONE', #12 ) ;
#39 = PERSON_AND_ORGANIZATION ( #129, #1 ) ;
#40 = CARTESIAN_POINT ( 'NONE',  ( 76.20000000000000284, 0.000000000000000000, 6.329598062809194126 ) ) ;
#41 = ORIENTED_EDGE ( 'NONE', *, *, #149, .F. ) ;
#42 = EDGE_CURVE ( 'NONE', #317, #317, #284, .T. ) ;
#43 = DIRECTION ( 'NONE',  ( -0.000000000000000000, -0.000000000000000000, 1.000000000000000000 ) ) ;
#44 = APPROVAL_ROLE ( '' ) ;
#45 = DIRECTION ( 'NONE',  ( 1.000000000000000000, 0.000000000000000000, 0.000000000000000000 ) ) ;
#46 = DIRECTION ( 'NONE',  ( -0.000000000000000000, -0.000000000000000000, 1.000000000000000000 ) ) ;
#47 = AXIS2_PLACEMENT_3D ( 'NONE', #9, #102, #103 ) ;
#48 = CIRCLE ( 'NONE', #75, 8.500000000000000000 ) ;
#49 = DATE_TIME_ROLE ( 'creation_date' ) ;
#50 = EDGE_LOOP ( 'NONE', ( #302 ) ) ;
#51 = EDGE_LOOP ( 'NONE', ( #187 ) ) ;
#52 = DIRECTION ( 'NONE',  ( 1.000000000000000000, 0.000000000000000000, -0.000000000000000000 ) ) ;
#53 = DIRECTION ( 'NONE',  ( 0.000000000000000000, 0.000000000000000000, 1.000000000000000000 ) ) ;
#54 = DIRECTION ( 'NONE',  ( -0.000000000000000000, -0.000000000000000000, 1.000000000000000000 ) ) ;
#55 = FACE_OUTER_BOUND ( 'NONE', #145, .T. ) ;
#56 = ADVANCED_FACE ( 'NONE', ( #251, #246 ), #245, .T. ) ;
#57 = FACE_BOUND ( 'NONE', #298, .T. ) ;
#58 = APPLICATION_PROTOCOL_DEFINITION ( 'international standard', 'config_control_design', 1994, #98 ) ;
#59 = ADVANCED_FACE ( 'NONE', ( #300, #66 ), #328, .F. ) ;
#60 = CARTESIAN_POINT ( 'NONE',  ( 76.20000000000000284, 0.000000000000000000, -6.329598062809194126 ) ) ;
#61 = ORIENTED_EDGE ( 'NONE', *, *, #42, .F. ) ;
#62 = APPLICATION_PROTOCOL_DEFINITION ( 'international standard', 'config_control_design', 1994, #82 ) ;
#63 = ORIENTED_EDGE ( 'NONE', *, *, #116, .F. ) ;
#64 = APPROVAL_DATE_TIME ( #321, #307 ) ;
#65 = AXIS2_PLACEMENT_3D ( 'NONE', #77, #4, #257 ) ;
#66 = FACE_OUTER_BOUND ( 'NONE', #85, .T. ) ;
#67 = DATE_AND_TIME ( #303, #81 ) ;
#68 = EDGE_LOOP ( 'NONE', ( #119 ) ) ;
#69 = DIRECTION ( 'NONE',  ( 1.000000000000000000, 0.000000000000000000, 0.000000000000000000 ) ) ;
#70 = COORDINATED_UNIVERSAL_TIME_OFFSET ( 2, 0, .AHEAD. ) ;
#71 = EDGE_LOOP ( 'NONE', ( #164 ) ) ;
#72 = EDGE_LOOP ( 'NONE', ( #264 ) ) ;
#73 = APPROVAL ( #171, 'UNSPECIFIED' ) ;
#74 = CARTESIAN_POINT ( 'NONE',  ( 0.000000000000000000, 0.000000000000000000, 6.399999999999999467 ) ) ;
#75 = AXIS2_PLACEMENT_3D ( 'NONE', #122, #53, #151 ) ;
#76 = FACE_OUTER_BOUND ( 'NONE', #68, .T. ) ;
#77 = CARTESIAN_POINT ( 'NONE',  ( 0.000000000000000000, 0.000000000000000000, 7.799999999999999822 ) ) ;
#78 = APPROVAL ( #86, 'UNSPECIFIED' ) ;
#79 = FACE_OUTER_BOUND ( 'NONE', #71, .T. ) ;
#80 = LOCAL_TIME ( 13, 31, 45.00000000000000000, #291 ) ;
#81 = LOCAL_TIME ( 13, 31, 45.00000000000000000, #147 ) ;
#82 = APPLICATION_CONTEXT ( 'configuration controlled 3d designs of mechanical parts and assemblies' ) ;
#83 = APPROVAL_ROLE ( '' ) ;
#84 = VERTEX_POINT ( 'NONE', #238 ) ;
#85 = EDGE_LOOP ( 'NONE', ( #225 ) ) ;
#86 = APPROVAL_STATUS ( 'not_yet_approved' ) ;
#87 = CIRCLE ( 'NONE', #158, 64.48770650821586514 ) ;
#88 = CC_DESIGN_DATE_AND_TIME_ASSIGNMENT ( #274, #297, ( #325 ) ) ;
#89 = EDGE_LOOP ( 'NONE', ( #327 ) ) ;
#90 = CIRCLE ( 'NONE', #120, 76.20000000000000284 ) ;
#91 = EDGE_LOOP ( 'NONE', ( #247 ) ) ;
#92 = CALENDAR_DATE ( 2025, 14, 8 ) ;
#93 = DIRECTION ( 'NONE',  ( -0.000000000000000000, -0.000000000000000000, 1.000000000000000000 ) ) ;
#94 = DIRECTION ( 'NONE',  ( -0.000000000000000000, -0.000000000000000000, 1.000000000000000000 ) ) ;
#95 = AXIS2_PLACEMENT_3D ( 'NONE', #108, #189, #290 ) ;
#96 = CARTESIAN_POINT ( 'NONE',  ( 0.000000000000000000, 0.000000000000000000, -5.600000000000000533 ) ) ;
#97 = EDGE_CURVE ( 'NONE', #267, #267, #178, .T. ) ;
#98 = APPLICATION_CONTEXT ( 'configuration controlled 3d designs of mechanical parts and assemblies' ) ;
#99 = CARTESIAN_POINT ( 'NONE',  ( 0.000000000000000000, 0.000000000000000000, 7.799999999999999822 ) ) ;
#100 = CARTESIAN_POINT ( 'NONE',  ( 0.000000000000000000, 0.000000000000000000, 6.399999999999999467 ) ) ;
#101 = AXIS2_PLACEMENT_3D ( 'NONE', #17, #113, #227 ) ;
#102 = DIRECTION ( 'NONE',  ( 0.000000000000000000, 0.000000000000000000, -1.000000000000000000 ) ) ;
#103 = DIRECTION ( 'NONE',  ( -1.000000000000000000, 0.000000000000000000, 0.000000000000000000 ) ) ;
#104 = VERTEX_POINT ( 'NONE', #212 ) ;
#105 = ORIENTED_EDGE ( 'NONE', *, *, #223, .F. ) ;
#106 =( NAMED_UNIT ( * ) SI_UNIT ( $, .STERADIAN. ) SOLID_ANGLE_UNIT ( ) );
#107 = MANIFOLD_SOLID_BREP ( 'Boss-Extrude1', #305 ) ;
#108 = CARTESIAN_POINT ( 'NONE',  ( 0.000000000000000000, 0.000000000000000000, 0.000000000000000000 ) ) ;
#109 = DATE_AND_TIME ( #15, #80 ) ;
#110 = AXIS2_PLACEMENT_3D ( 'NONE', #144, #94, #304 ) ;
#111 = APPROVAL_PERSON_ORGANIZATION ( #169, #73, #174 ) ;
#112 = CARTESIAN_POINT ( 'NONE',  ( 15.00000000000000000, 0.000000000000000000, -5.600000000000000533 ) ) ;
#113 = DIRECTION ( 'NONE',  ( -0.000000000000000000, -0.000000000000000000, 1.000000000000000000 ) ) ;
#114 = DIRECTION ( 'NONE',  ( -0.000000000000000000, -0.000000000000000000, -1.000000000000000000 ) ) ;
#115 = AXIS2_PLACEMENT_3D ( 'NONE', #181, #177, #52 ) ;
#116 = EDGE_CURVE ( 'NONE', #10, #10, #152, .T. ) ;
#117 = ORIENTED_EDGE ( 'NONE', *, *, #97, .T. ) ;
#118 = DIRECTION ( 'NONE',  ( -0.000000000000000000, -0.000000000000000000, 1.000000000000000000 ) ) ;
#119 = ORIENTED_EDGE ( 'NONE', *, *, #33, .T. ) ;
#120 = AXIS2_PLACEMENT_3D ( 'NONE', #168, #43, #45 ) ;
#121 = DIRECTION ( 'NONE',  ( 0.000000000000000000, 0.000000000000000000, 1.000000000000000000 ) ) ;
#122 = CARTESIAN_POINT ( 'NONE',  ( 0.000000000000000000, 0.000000000000000000, 6.399999999999999467 ) ) ;
#123 = FACE_OUTER_BOUND ( 'NONE', #308, .T. ) ;
#124 = AXIS2_PLACEMENT_3D ( 'NONE', #282, #121, #231 ) ;
#125 = CARTESIAN_POINT ( 'NONE',  ( 0.000000000000000000, 0.000000000000000000, 1.478207252018050921 ) ) ;
#126 = CYLINDRICAL_SURFACE ( 'NONE', #254, 76.20000000000000284 ) ;
#127 = VERTEX_POINT ( 'NONE', #214 ) ;
#128 = EDGE_CURVE ( 'NONE', #138, #138, #37, .T. ) ;
#129 = PERSON ( 'UNSPECIFIED', 'UNSPECIFIED', 'UNSPECIFIED', ('UNSPECIFIED'), ('UNSPECIFIED'), ('UNSPECIFIED') ) ;
#130 = DIRECTION ( 'NONE',  ( 1.000000000000000000, 0.000000000000000000, 0.000000000000000000 ) ) ;
#131 = AXIS2_PLACEMENT_3D ( 'NONE', #200, #21, #306 ) ;
#132 = CC_DESIGN_APPROVAL ( #73, ( #166 ) ) ;
#133 = ORIENTED_EDGE ( 'NONE', *, *, #13, .T. ) ;
#134 = DIRECTION ( 'NONE',  ( 1.000000000000000000, 0.000000000000000000, 0.000000000000000000 ) ) ;
#135 = EDGE_LOOP ( 'NONE', ( #296 ) ) ;
#136 = ADVANCED_FACE ( 'NONE', ( #79, #57 ), #313, .F. ) ;
#137 = DIRECTION ( 'NONE',  ( -0.000000000000000000, -0.000000000000000000, 1.000000000000000000 ) ) ;
#138 = VERTEX_POINT ( 'NONE', #293 ) ;
#139 = EDGE_LOOP ( 'NONE', ( #117 ) ) ;
#140 = AXIS2_PLACEMENT_3D ( 'NONE', #74, #283, #27 ) ;
#141 = DATE_AND_TIME ( #324, #315 ) ;
#142 = DIRECTION ( 'NONE',  ( 1.000000000000000000, 0.000000000000000000, 0.000000000000000000 ) ) ;
#143 = PERSON_AND_ORGANIZATION ( #129, #1 ) ;
#144 = CARTESIAN_POINT ( 'NONE',  ( 0.000000000000000000, 0.000000000000000000, 7.799999999999999822 ) ) ;
#145 = EDGE_LOOP ( 'NONE', ( #271 ) ) ;
#146 = AXIS2_PLACEMENT_3D ( 'NONE', #216, #137, #134 ) ;
#147 = COORDINATED_UNIVERSAL_TIME_OFFSET ( 2, 0, .AHEAD. ) ;
#148 = CARTESIAN_POINT ( 'NONE',  ( 0.000000000000000000, 0.000000000000000000, -7.800000000000001599 ) ) ;
#149 = EDGE_CURVE ( 'NONE', #320, #320, #190, .T. ) ;
#150 = ORIENTED_EDGE ( 'NONE', *, *, #163, .F. ) ;
#151 = DIRECTION ( 'NONE',  ( 1.000000000000000000, 0.000000000000000000, 0.000000000000000000 ) ) ;
#152 = CIRCLE ( 'NONE', #7, 76.20000000000000284 ) ;
#153 = DIRECTION ( 'NONE',  ( 0.000000000000000000, 0.000000000000000000, 1.000000000000000000 ) ) ;
#154 = PERSON_AND_ORGANIZATION_ROLE ( 'classification_officer' ) ;
#155 = CYLINDRICAL_SURFACE ( 'NONE', #140, 8.500000000000000000 ) ;
#156 = FACE_OUTER_BOUND ( 'NONE', #326, .T. ) ;
#157 = DESIGN_CONTEXT ( 'detailed design', #98, 'design' ) ;
#158 = AXIS2_PLACEMENT_3D ( 'NONE', #261, #161, #130 ) ;
#159 = FACE_BOUND ( 'NONE', #170, .T. ) ;
#160 = CC_DESIGN_PERSON_AND_ORGANIZATION_ASSIGNMENT ( #279, #270, ( #166 ) ) ;
#161 = DIRECTION ( 'NONE',  ( -0.000000000000000000, -0.000000000000000000, 1.000000000000000000 ) ) ;
#162 = AXIS2_PLACEMENT_3D ( 'NONE', #6, #179, #205 ) ;
#163 = EDGE_CURVE ( 'NONE', #127, #127, #289, .T. ) ;
#164 = ORIENTED_EDGE ( 'NONE', *, *, #128, .F. ) ;
#165 = PERSON_AND_ORGANIZATION ( #129, #1 ) ;
#166 = PRODUCT_DEFINITION_FORMATION_WITH_SPECIFIED_SOURCE ( 'ANY', '', #239, .NOT_KNOWN. ) ;
#167 = APPROVAL_STATUS ( 'not_yet_approved' ) ;
#168 = CARTESIAN_POINT ( 'NONE',  ( 0.000000000000000000, 0.000000000000000000, 7.799999999999999822 ) ) ;
#169 = PERSON_AND_ORGANIZATION ( #129, #1 ) ;
#170 = EDGE_LOOP ( 'NONE', ( #202 ) ) ;
#171 = APPROVAL_STATUS ( 'not_yet_approved' ) ;
#172 = EDGE_LOOP ( 'NONE', ( #228 ) ) ;
#173 = ADVANCED_FACE ( 'NONE', ( #123, #30 ), #240, .F. ) ;
#174 = APPROVAL_ROLE ( '' ) ;
#175 = CARTESIAN_POINT ( 'NONE',  ( 0.000000000000000000, 0.000000000000000000, -6.329598062809194126 ) ) ;
#176 = DIRECTION ( 'NONE',  ( -1.000000000000000000, 0.000000000000000000, -0.000000000000000000 ) ) ;
#177 = DIRECTION ( 'NONE',  ( 0.000000000000000000, 0.000000000000000000, 1.000000000000000000 ) ) ;
#178 = CIRCLE ( 'NONE', #196, 15.00000000000000000 ) ;
#179 = DIRECTION ( 'NONE',  ( 0.000000000000000000, -0.000000000000000000, 1.000000000000000000 ) ) ;
#180 = DIRECTION ( 'NONE',  ( 1.000000000000000000, 0.000000000000000000, 0.000000000000000000 ) ) ;
#181 = CARTESIAN_POINT ( 'NONE',  ( 0.000000000000000000, 0.000000000000000000, 6.399999999999999467 ) ) ;
#182 = AXIS2_PLACEMENT_3D ( 'NONE', #99, #210, #314 ) ;
#183 =( NAMED_UNIT ( * ) PLANE_ANGLE_UNIT ( ) SI_UNIT ( $, .RADIAN. ) );
#184 = VERTEX_POINT ( 'NONE', #241 ) ;
#185 = PRODUCT_DEFINITION_SHAPE ( 'NONE', 'NONE',  #28 ) ;
#186 = MECHANICAL_CONTEXT ( 'NONE', #82, 'mechanical' ) ;
#187 = ORIENTED_EDGE ( 'NONE', *, *, #33, .F. ) ;
#188 = AXIS2_PLACEMENT_3D ( 'NONE', #252, #207, #208 ) ;
#189 = DIRECTION ( 'NONE',  ( 0.000000000000000000, 0.000000000000000000, 1.000000000000000000 ) ) ;
#190 = CIRCLE ( 'NONE', #258, 20.00000000000000000 ) ;
#191 =( LENGTH_UNIT ( ) NAMED_UNIT ( * ) SI_UNIT ( .MILLI., .METRE. ) );
#192 = ORIENTED_EDGE ( 'NONE', *, *, #116, .T. ) ;
#193 = ADVANCED_FACE ( 'NONE', ( #55, #259 ), #309, .T. ) ;
#194 = CALENDAR_DATE ( 2025, 14, 8 ) ;
#195 = DIRECTION ( 'NONE',  ( 1.000000000000000000, 0.000000000000000000, -0.000000000000000000 ) ) ;
#196 = AXIS2_PLACEMENT_3D ( 'NONE', #19, #114, #221 ) ;
#197 = CARTESIAN_POINT ( 'NONE',  ( 0.000000000000000000, 0.000000000000000000, 6.329598062809194126 ) ) ;
#198 = FACE_BOUND ( 'NONE', #172, .T. ) ;
#199 = ADVANCED_BREP_SHAPE_REPRESENTATION ( '250814 STEP 3-400575-00_6812', ( #107, #95 ), #201 ) ;
#200 = CARTESIAN_POINT ( 'NONE',  ( 0.000000000000000000, 0.000000000000000000, -7.799999999999999822 ) ) ;
#201 =( GEOMETRIC_REPRESENTATION_CONTEXT ( 3 ) GLOBAL_UNCERTAINTY_ASSIGNED_CONTEXT ( ( #318 ) ) GLOBAL_UNIT_ASSIGNED_CONTEXT ( ( #191, #183, #106 ) ) REPRESENTATION_CONTEXT ( 'NONE', 'WORKASPACE' ) );
#202 = ORIENTED_EDGE ( 'NONE', *, *, #329, .F. ) ;
#203 = FACE_OUTER_BOUND ( 'NONE', #89, .T. ) ;
#204 = PRODUCT_RELATED_PRODUCT_CATEGORY ( 'detail', '', ( #239 ) ) ;
#205 = DIRECTION ( 'NONE',  ( 1.000000000000000000, 0.000000000000000000, 0.000000000000000000 ) ) ;
#206 = CONICAL_SURFACE ( 'NONE', #146, 64.48770650821586514, 1.178097245096171086 ) ;
#207 = DIRECTION ( 'NONE',  ( -0.000000000000000000, -0.000000000000000000, 1.000000000000000000 ) ) ;
#208 = DIRECTION ( 'NONE',  ( 1.000000000000000000, 0.000000000000000000, 0.000000000000000000 ) ) ;
#209 = ADVANCED_FACE ( 'NONE', ( #156, #203 ), #312, .F. ) ;
#210 = DIRECTION ( 'NONE',  ( -0.000000000000000000, -0.000000000000000000, 1.000000000000000000 ) ) ;
#211 = LOCAL_TIME ( 13, 31, 45.00000000000000000, #249 ) ;
#212 = CARTESIAN_POINT ( 'NONE',  ( 8.500000000000000000, 0.000000000000000000, 6.399999999999999467 ) ) ;
#213 = ORIENTED_EDGE ( 'NONE', *, *, #281, .F. ) ;
#214 = CARTESIAN_POINT ( 'NONE',  ( 64.48770650821586514, 0.000000000000000000, 1.478207252018050921 ) ) ;
#215 = AXIS2_PLACEMENT_3D ( 'NONE', #175, #118, #142 ) ;
#216 = CARTESIAN_POINT ( 'NONE',  ( 0.000000000000000000, 0.000000000000000000, 1.478207252018050921 ) ) ;
#217 = VERTEX_POINT ( 'NONE', #263 ) ;
#218 = ADVANCED_FACE ( 'NONE', ( #31, #76 ), #236, .F. ) ;
#219 = APPROVAL_DATE_TIME ( #67, #73 ) ;
#220 = PLANE ( 'NONE',  #32 ) ;
#221 = DIRECTION ( 'NONE',  ( 1.000000000000000000, 0.000000000000000000, 0.000000000000000000 ) ) ;
#222 = AXIS2_PLACEMENT_3D ( 'NONE', #25, #255, #176 ) ;
#223 = EDGE_CURVE ( 'NONE', #104, #104, #48, .T. ) ;
#224 = PERSON_AND_ORGANIZATION ( #129, #1 ) ;
#225 = ORIENTED_EDGE ( 'NONE', *, *, #97, .F. ) ;
#226 = PERSON_AND_ORGANIZATION ( #129, #1 ) ;
#227 = DIRECTION ( 'NONE',  ( 1.000000000000000000, 0.000000000000000000, 0.000000000000000000 ) ) ;
#228 = ORIENTED_EDGE ( 'NONE', *, *, #286, .T. ) ;
#229 = APPROVAL_PERSON_ORGANIZATION ( #39, #78, #83 ) ;
#230 = CC_DESIGN_SECURITY_CLASSIFICATION ( #325, ( #166 ) ) ;
#231 = DIRECTION ( 'NONE',  ( 1.000000000000000000, 0.000000000000000000, 0.000000000000000000 ) ) ;
#232 = FACE_OUTER_BOUND ( 'NONE', #11, .T. ) ;
#233 = CIRCLE ( 'NONE', #248, 15.00000000000000000 ) ;
#234 = CC_DESIGN_APPROVAL ( #307, ( #325 ) ) ;
#235 = CC_DESIGN_DATE_AND_TIME_ASSIGNMENT ( #141, #49, ( #28 ) ) ;
#236 = PLANE ( 'NONE',  #222 ) ;
#237 = DIRECTION ( 'NONE',  ( 1.000000000000000000, 0.000000000000000000, 0.000000000000000000 ) ) ;
#238 = CARTESIAN_POINT ( 'NONE',  ( 76.20000000000000284, 0.000000000000000000, 7.799999999999999822 ) ) ;
#239 = PRODUCT ( '250814 STEP 3-400575-00_6812', '250814 STEP 3-400575-00_6812', '', ( #186 ) ) ;
#240 = TOROIDAL_SURFACE ( 'NONE', #188, 65.10000000000000853, 1.599999999999991651 ) ;
#241 = CARTESIAN_POINT ( 'NONE',  ( 20.00000000000000000, 0.000000000000000000, 7.799999999999999822 ) ) ;
#242 = CARTESIAN_POINT ( 'NONE',  ( 20.00000000000000000, 0.000000000000000000, 6.399999999999999467 ) ) ;
#243 = CC_DESIGN_PERSON_AND_ORGANIZATION_ASSIGNMENT ( #260, #35, ( #239 ) ) ;
#244 = SHAPE_DEFINITION_REPRESENTATION ( #185, #199 ) ;
#245 = CYLINDRICAL_SURFACE ( 'NONE', #101, 76.20000000000000284 ) ;
#246 = FACE_OUTER_BOUND ( 'NONE', #14, .T. ) ;
#247 = ORIENTED_EDGE ( 'NONE', *, *, #286, .F. ) ;
#248 = AXIS2_PLACEMENT_3D ( 'NONE', #148, #93, #250 ) ;
#249 = COORDINATED_UNIVERSAL_TIME_OFFSET ( 2, 0, .AHEAD. ) ;
#250 = DIRECTION ( 'NONE',  ( 1.000000000000000000, 0.000000000000000000, 0.000000000000000000 ) ) ;
#251 = FACE_OUTER_BOUND ( 'NONE', #51, .T. ) ;
#252 = CARTESIAN_POINT ( 'NONE',  ( 0.000000000000000000, 0.000000000000000000, 0.000000000000000000 ) ) ;
#253 = ADVANCED_FACE ( 'NONE', ( #34, #8 ), #126, .T. ) ;
#254 = AXIS2_PLACEMENT_3D ( 'NONE', #256, #288, #237 ) ;
#255 = DIRECTION ( 'NONE',  ( 0.000000000000000000, 0.000000000000000000, -1.000000000000000000 ) ) ;
#256 = CARTESIAN_POINT ( 'NONE',  ( 0.000000000000000000, 0.000000000000000000, 7.799999999999999822 ) ) ;
#257 = DIRECTION ( 'NONE',  ( 1.000000000000000000, 0.000000000000000000, 0.000000000000000000 ) ) ;
#258 = AXIS2_PLACEMENT_3D ( 'NONE', #100, #153, #287 ) ;
#259 = FACE_BOUND ( 'NONE', #319, .T. ) ;
#260 = PERSON_AND_ORGANIZATION ( #129, #1 ) ;
#261 = CARTESIAN_POINT ( 'NONE',  ( 0.000000000000000000, 0.000000000000000000, -1.478207252018050921 ) ) ;
#262 = CIRCLE ( 'NONE', #124, 8.500000000000000000 ) ;
#263 = CARTESIAN_POINT ( 'NONE',  ( 8.500000000000000000, 0.000000000000000000, -5.600000000000000533 ) ) ;
#264 = ORIENTED_EDGE ( 'NONE', *, *, #163, .T. ) ;
#265 = FACE_BOUND ( 'NONE', #72, .T. ) ;
#266 = ADVANCED_FACE ( 'NONE', ( #159, #311 ), #20, .T. ) ;
#267 = VERTEX_POINT ( 'NONE', #112 ) ;
#268 = EDGE_LOOP ( 'NONE', ( #61 ) ) ;
#269 = CC_DESIGN_APPROVAL ( #78, ( #28 ) ) ;
#270 = PERSON_AND_ORGANIZATION_ROLE ( 'creator' ) ;
#271 = ORIENTED_EDGE ( 'NONE', *, *, #149, .T. ) ;
#272 = COORDINATED_UNIVERSAL_TIME_OFFSET ( 2, 0, .AHEAD. ) ;
#273 = EDGE_LOOP ( 'NONE', ( #213 ) ) ;
#274 = DATE_AND_TIME ( #194, #26 ) ;
#275 = ORIENTED_EDGE ( 'NONE', *, *, #329, .T. ) ;
#276 = PERSON_AND_ORGANIZATION_ROLE ( 'design_supplier' ) ;
#277 = EDGE_LOOP ( 'NONE', ( #24 ) ) ;
#278 = APPROVAL_PERSON_ORGANIZATION ( #226, #307, #44 ) ;
#279 = PERSON_AND_ORGANIZATION ( #129, #1 ) ;
#280 = FACE_OUTER_BOUND ( 'NONE', #139, .T. ) ;
#281 = EDGE_CURVE ( 'NONE', #184, #184, #292, .T. ) ;
#282 = CARTESIAN_POINT ( 'NONE',  ( 0.000000000000000000, 0.000000000000000000, -5.600000000000000533 ) ) ;
#283 = DIRECTION ( 'NONE',  ( -0.000000000000000000, -0.000000000000000000, -1.000000000000000000 ) ) ;
#284 = CIRCLE ( 'NONE', #215, 76.20000000000000284 ) ;
#285 = FACE_OUTER_BOUND ( 'NONE', #91, .T. ) ;
#286 = EDGE_CURVE ( 'NONE', #217, #217, #262, .T. ) ;
#287 = DIRECTION ( 'NONE',  ( 1.000000000000000000, 0.000000000000000000, 0.000000000000000000 ) ) ;
#288 = DIRECTION ( 'NONE',  ( -0.000000000000000000, -0.000000000000000000, 1.000000000000000000 ) ) ;
#289 = CIRCLE ( 'NONE', #299, 64.48770650821586514 ) ;
#290 = DIRECTION ( 'NONE',  ( 1.000000000000000000, 0.000000000000000000, 0.000000000000000000 ) ) ;
#291 = COORDINATED_UNIVERSAL_TIME_OFFSET ( 2, 0, .AHEAD. ) ;
#292 = CIRCLE ( 'NONE', #182, 20.00000000000000000 ) ;
#293 = CARTESIAN_POINT ( 'NONE',  ( 76.20000000000000284, 0.000000000000000000, -7.799999999999999822 ) ) ;
#294 = ORIENTED_EDGE ( 'NONE', *, *, #223, .T. ) ;
#295 = APPROVAL_DATE_TIME ( #109, #78 ) ;
#296 = ORIENTED_EDGE ( 'NONE', *, *, #13, .F. ) ;
#297 = DATE_TIME_ROLE ( 'classification_date' ) ;
#298 = EDGE_LOOP ( 'NONE', ( #133 ) ) ;
#299 = AXIS2_PLACEMENT_3D ( 'NONE', #125, #54, #180 ) ;
#300 = FACE_OUTER_BOUND ( 'NONE', #135, .T. ) ;
#301 = PERSON_AND_ORGANIZATION_ROLE ( 'creator' ) ;
#302 = ORIENTED_EDGE ( 'NONE', *, *, #42, .T. ) ;
#303 = CALENDAR_DATE ( 2025, 14, 8 ) ;
#304 = DIRECTION ( 'NONE',  ( 1.000000000000000000, 0.000000000000000000, 0.000000000000000000 ) ) ;
#305 = CLOSED_SHELL ( 'NONE', ( #209, #59, #136, #253, #266, #173, #316, #56, #218, #18, #193, #310 ) ) ;
#306 = DIRECTION ( 'NONE',  ( 1.000000000000000000, 0.000000000000000000, 0.000000000000000000 ) ) ;
#307 = APPROVAL ( #167, 'UNSPECIFIED' ) ;
#308 = EDGE_LOOP ( 'NONE', ( #150 ) ) ;
#309 = PLANE ( 'NONE',  #115 ) ;
#310 = ADVANCED_FACE ( 'NONE', ( #3, #285 ), #155, .F. ) ;
#311 = FACE_OUTER_BOUND ( 'NONE', #50, .T. ) ;
#312 = CYLINDRICAL_SURFACE ( 'NONE', #65, 20.00000000000000000 ) ;
#313 = PLANE ( 'NONE',  #162 ) ;
#314 = DIRECTION ( 'NONE',  ( 1.000000000000000000, 0.000000000000000000, 0.000000000000000000 ) ) ;
#315 = LOCAL_TIME ( 13, 31, 45.00000000000000000, #70 ) ;
#316 = ADVANCED_FACE ( 'NONE', ( #232, #265 ), #206, .T. ) ;
#317 = VERTEX_POINT ( 'NONE', #60 ) ;
#318 = UNCERTAINTY_MEASURE_WITH_UNIT (LENGTH_MEASURE( 1.000000000000000082E-05 ), #191, 'distance_accuracy_value', 'NONE');
#319 = EDGE_LOOP ( 'NONE', ( #105 ) ) ;
#320 = VERTEX_POINT ( 'NONE', #242 ) ;
#321 = DATE_AND_TIME ( #92, #211 ) ;
#322 = EDGE_LOOP ( 'NONE', ( #294 ) ) ;
#323 = CC_DESIGN_PERSON_AND_ORGANIZATION_ASSIGNMENT ( #224, #276, ( #166 ) ) ;
#324 = CALENDAR_DATE ( 2025, 14, 8 ) ;
#325 = SECURITY_CLASSIFICATION ( '', '', #29 ) ;
#326 = EDGE_LOOP ( 'NONE', ( #41 ) ) ;
#327 = ORIENTED_EDGE ( 'NONE', *, *, #281, .T. ) ;
#328 = CYLINDRICAL_SURFACE ( 'NONE', #110, 15.00000000000000000 ) ;
#329 = EDGE_CURVE ( 'NONE', #38, #38, #87, .T. ) ;
ENDSEC;
END-ISO-10303-21;
